ISO-10303-21;
HEADER;
FILE_DESCRIPTION (( 'STEP AP203' ),
    '1' );
FILE_NAME ('Q-OZHWP-R2-10-780-M.STEP',
    '2020-12-22T09:12:19',
    ( '' ),
    ( '' ),
    'SwSTEP 2.0',
    'SolidWorks 2020',
    '' );
FILE_SCHEMA (( 'CONFIG_CONTROL_DESIGN' ));
ENDSEC;

DATA;
#1 = CARTESIAN_POINT ( 'NONE',  ( -3.000000000000000000, 5.000000000000000000, 0.000000000000000000 ) ) ;
#2 = DIRECTION ( 'NONE',  ( 0.000000000000000000, 0.000000000000000000, 1.000000000000000000 ) ) ;
#3 = CC_DESIGN_DATE_AND_TIME_ASSIGNMENT ( #47, #154, ( #286 ) ) ;
#4 = DIRECTION ( 'NONE',  ( -1.000000000000000000, -0.000000000000000000, -0.000000000000000000 ) ) ;
#5 = CC_DESIGN_PERSON_AND_ORGANIZATION_ASSIGNMENT ( #303, #222, ( #31 ) ) ;
#6 = FACE_OUTER_BOUND ( 'NONE', #253, .T. ) ;
#7 = EDGE_LOOP ( 'NONE', ( #58, #267, #211, #215 ) ) ;
#8 = VERTEX_POINT ( 'NONE', #68 ) ;
#9 = CARTESIAN_POINT ( 'NONE',  ( -1.614212418857619014, 0.000000000000000000, 5.000000000000000888 ) ) ;
#10 = ORIENTED_EDGE ( 'NONE', *, *, #72, .T. ) ;
#11 = CLOSED_SHELL ( 'NONE', ( #181, #75, #33, #144, #39, #86, #125, #147, #156, #334 ) ) ;
#12 = CARTESIAN_POINT ( 'NONE',  ( -1.614212418857619014, 1.555301434917138433E-15, -12.69999999999999929 ) ) ;
#13 = ADVANCED_BREP_SHAPE_REPRESENTATION ( 'Q-OZHWP-R2-10-780-M', ( #137, #226 ), #296 ) ;
#14 = DIRECTION ( 'NONE',  ( 0.000000000000000000, 0.000000000000000000, 1.000000000000000000 ) ) ;
#15 = APPROVAL_DATE_TIME ( #271, #229 ) ;
#16 = DIRECTION ( 'NONE',  ( 0.000000000000000000, 0.000000000000000000, -1.000000000000000000 ) ) ;
#17 = CARTESIAN_POINT ( 'NONE',  ( 0.000000000000000000, 0.000000000000000000, 0.000000000000000000 ) ) ;
#18 = CIRCLE ( 'NONE', #261, 12.69999999999999929 ) ;
#19 = COORDINATED_UNIVERSAL_TIME_OFFSET ( 8, 0, .AHEAD. ) ;
#20 = APPROVAL_DATE_TIME ( #97, #297 ) ;
#21 = DIRECTION ( 'NONE',  ( -1.000000000000000000, -0.000000000000000000, -0.000000000000000000 ) ) ;
#22 = PERSON_AND_ORGANIZATION_ROLE ( 'creator' ) ;
#23 = EDGE_CURVE ( 'NONE', #8, #195, #172, .T. ) ;
#24 = AXIS2_PLACEMENT_3D ( 'NONE', #193, #53, #164 ) ;
#25 = APPROVAL_STATUS ( 'not_yet_approved' ) ;
#26 = FACE_OUTER_BOUND ( 'NONE', #185, .T. ) ;
#27 = DIRECTION ( 'NONE',  ( 0.000000000000000000, 0.000000000000000000, 1.000000000000000000 ) ) ;
#28 = DIRECTION ( 'NONE',  ( 0.000000000000000000, 0.000000000000000000, 1.000000000000000000 ) ) ;
#29 = CARTESIAN_POINT ( 'NONE',  ( -1.614212418857619014, 0.000000000000000000, 5.000000000000000888 ) ) ;
#30 = ORIENTED_EDGE ( 'NONE', *, *, #249, .T. ) ;
#31 = PRODUCT ( 'Q-OZHWP-R2-10-780-M', 'Q-OZHWP-R2-10-780-M', '', ( #227 ) ) ;
#32 = FACE_OUTER_BOUND ( 'NONE', #140, .T. ) ;
#33 = ADVANCED_FACE ( 'NONE', ( #332 ), #113, .F. ) ;
#34 = ORIENTED_EDGE ( 'NONE', *, *, #308, .F. ) ;
#35 = VERTEX_POINT ( 'NONE', #324 ) ;
#36 = CARTESIAN_POINT ( 'NONE',  ( 3.000000000000000000, 12.69999999999999929, 0.000000000000000000 ) ) ;
#37 = DIRECTION ( 'NONE',  ( -1.000000000000000000, -0.000000000000000000, -0.000000000000000000 ) ) ;
#38 = CARTESIAN_POINT ( 'NONE',  ( -1.614212418857619014, 0.000000000000000000, 0.000000000000000000 ) ) ;
#39 = ADVANCED_FACE ( 'NONE', ( #63 ), #176, .F. ) ;
#40 = ORIENTED_EDGE ( 'NONE', *, *, #259, .T. ) ;
#41 = DIRECTION ( 'NONE',  ( 0.000000000000000000, 0.000000000000000000, 1.000000000000000000 ) ) ;
#42 = DATE_AND_TIME ( #65, #230 ) ;
#43 = CC_DESIGN_APPROVAL ( #229, ( #60 ) ) ;
#44 = CALENDAR_DATE ( 2020, 22, 12 ) ;
#45 = DIRECTION ( 'NONE',  ( 0.000000000000000000, 0.000000000000000000, 1.000000000000000000 ) ) ;
#46 = PERSON ( 'UNSPECIFIED', 'UNSPECIFIED', 'UNSPECIFIED', ('UNSPECIFIED'), ('UNSPECIFIED'), ('UNSPECIFIED') ) ;
#47 = DATE_AND_TIME ( #196, #207 ) ;
#48 = CARTESIAN_POINT ( 'NONE',  ( -3.000000000000000000, 0.000000000000000000, 0.000000000000000000 ) ) ;
#49 = AXIS2_PLACEMENT_3D ( 'NONE', #130, #232, #157 ) ;
#50 = DIRECTION ( 'NONE',  ( 0.000000000000000000, 0.000000000000000000, -1.000000000000000000 ) ) ;
#51 = EDGE_CURVE ( 'NONE', #315, #35, #131, .T. ) ;
#52 = ORIENTED_EDGE ( 'NONE', *, *, #152, .F. ) ;
#53 = DIRECTION ( 'NONE',  ( 1.000000000000000000, 0.000000000000000000, 0.000000000000000000 ) ) ;
#54 = AXIS2_PLACEMENT_3D ( 'NONE', #36, #264, #290 ) ;
#55 = VERTEX_POINT ( 'NONE', #233 ) ;
#56 = APPROVAL_PERSON_ORGANIZATION ( #300, #297, #150 ) ;
#57 = DIRECTION ( 'NONE',  ( 0.000000000000000000, 0.000000000000000000, 1.000000000000000000 ) ) ;
#58 = ORIENTED_EDGE ( 'NONE', *, *, #152, .T. ) ;
#59 = EDGE_LOOP ( 'NONE', ( #313, #135 ) ) ;
#60 = SECURITY_CLASSIFICATION ( '', '', #241 ) ;
#61 = DIRECTION ( 'NONE',  ( -1.000000000000000000, -0.000000000000000000, -0.000000000000000000 ) ) ;
#62 = APPLICATION_PROTOCOL_DEFINITION ( 'international standard', 'config_control_design', 1994, #119 ) ;
#63 = FACE_OUTER_BOUND ( 'NONE', #103, .T. ) ;
#64 = CARTESIAN_POINT ( 'NONE',  ( -1.614212418857619014, 0.000000000000000000, 0.000000000000000000 ) ) ;
#65 = CALENDAR_DATE ( 2020, 22, 12 ) ;
#66 = CARTESIAN_POINT ( 'NONE',  ( 3.000000000000000000, 0.000000000000000000, 0.000000000000000000 ) ) ;
#67 =( NAMED_UNIT ( * ) PLANE_ANGLE_UNIT ( ) SI_UNIT ( $, .RADIAN. ) );
#68 = CARTESIAN_POINT ( 'NONE',  ( 3.000000000000000000, 0.000000000000000000, 5.000000000000001776 ) ) ;
#69 = CIRCLE ( 'NONE', #49, 5.000000000000000000 ) ;
#70 = CC_DESIGN_PERSON_AND_ORGANIZATION_ASSIGNMENT ( #330, #199, ( #180 ) ) ;
#71 = DIRECTION ( 'NONE',  ( -1.000000000000000000, 0.000000000000000000, -0.000000000000000000 ) ) ;
#72 = EDGE_CURVE ( 'NONE', #195, #87, #202, .T. ) ;
#73 = CARTESIAN_POINT ( 'NONE',  ( 1.250000000000000222, 5.000000000000000000, 0.000000000000000000 ) ) ;
#74 = LOCAL_TIME ( 17, 12, 19.00000000000000000, #19 ) ;
#75 = ADVANCED_FACE ( 'NONE', ( #279 ), #132, .F. ) ;
#76 = DIRECTION ( 'NONE',  ( -1.000000000000000000, -0.000000000000000000, -0.000000000000000000 ) ) ;
#77 = VERTEX_POINT ( 'NONE', #159 ) ;
#78 = EDGE_LOOP ( 'NONE', ( #243, #107 ) ) ;
#79 = LINE ( 'NONE', #12, #272 ) ;
#80 = AXIS2_PLACEMENT_3D ( 'NONE', #64, #218, #299 ) ;
#81 = ORIENTED_EDGE ( 'NONE', *, *, #95, .F. ) ;
#82 = VECTOR ( 'NONE', #316, 1000.000000000000000 ) ;
#83 = CARTESIAN_POINT ( 'NONE',  ( -1.250000000000000222, 0.000000000000000000, 0.000000000000000000 ) ) ;
#84 = DIRECTION ( 'NONE',  ( -1.000000000000000000, -0.000000000000000000, -0.000000000000000000 ) ) ;
#85 = PERSON_AND_ORGANIZATION_ROLE ( 'classification_officer' ) ;
#86 = ADVANCED_FACE ( 'NONE', ( #26 ), #285, .F. ) ;
#87 = VERTEX_POINT ( 'NONE', #162 ) ;
#88 = CARTESIAN_POINT ( 'NONE',  ( 3.000000000000000000, 0.000000000000000000, 0.000000000000000000 ) ) ;
#89 = EDGE_CURVE ( 'NONE', #35, #292, #277, .T. ) ;
#90 = DESIGN_CONTEXT ( 'detailed design', #179, 'design' ) ;
#91 = AXIS2_PLACEMENT_3D ( 'NONE', #257, #314, #280 ) ;
#92 = VECTOR ( 'NONE', #262, 1000.000000000000000 ) ;
#93 = FACE_OUTER_BOUND ( 'NONE', #294, .T. ) ;
#94 = APPROVAL_STATUS ( 'not_yet_approved' ) ;
#95 = EDGE_CURVE ( 'NONE', #115, #188, #133, .T. ) ;
#96 = AXIS2_PLACEMENT_3D ( 'NONE', #48, #76, #124 ) ;
#97 = DATE_AND_TIME ( #44, #74 ) ;
#98 = CIRCLE ( 'NONE', #274, 12.69999999999999929 ) ;
#99 = DIRECTION ( 'NONE',  ( 1.000000000000000000, 0.000000000000000000, 0.000000000000000000 ) ) ;
#100 = DIRECTION ( 'NONE',  ( -0.000000000000000000, 0.000000000000000000, 1.000000000000000000 ) ) ;
#101 = FACE_OUTER_BOUND ( 'NONE', #59, .T. ) ;
#102 = EDGE_CURVE ( 'NONE', #292, #35, #126, .T. ) ;
#103 = EDGE_LOOP ( 'NONE', ( #317, #263, #142, #321 ) ) ;
#104 = DIRECTION ( 'NONE',  ( 0.000000000000000000, 0.000000000000000000, 1.000000000000000000 ) ) ;
#105 = ORIENTED_EDGE ( 'NONE', *, *, #308, .T. ) ;
#106 = DIRECTION ( 'NONE',  ( 0.000000000000000000, 0.000000000000000000, 1.000000000000000000 ) ) ;
#107 = ORIENTED_EDGE ( 'NONE', *, *, #118, .F. ) ;
#108 = VECTOR ( 'NONE', #184, 1000.000000000000000 ) ;
#109 = EDGE_LOOP ( 'NONE', ( #167, #153 ) ) ;
#110 = CYLINDRICAL_SURFACE ( 'NONE', #173, 12.69999999999999929 ) ;
#111 = ORIENTED_EDGE ( 'NONE', *, *, #208, .F. ) ;
#112 = CARTESIAN_POINT ( 'NONE',  ( 1.250000000000000444, 0.000000000000000000, 0.000000000000000000 ) ) ;
#113 = CYLINDRICAL_SURFACE ( 'NONE', #80, 5.000000000000000888 ) ;
#114 = CARTESIAN_POINT ( 'NONE',  ( -1.614212418857619014, 6.123233995736767268E-16, -5.000000000000000888 ) ) ;
#115 = VERTEX_POINT ( 'NONE', #158 ) ;
#116 = AXIS2_PLACEMENT_3D ( 'NONE', #145, #246, #16 ) ;
#117 = DIRECTION ( 'NONE',  ( 1.000000000000000000, 0.000000000000000000, 0.000000000000000000 ) ) ;
#118 = EDGE_CURVE ( 'NONE', #87, #214, #69, .T. ) ;
#119 = APPLICATION_CONTEXT ( 'configuration controlled 3d designs of mechanical parts and assemblies' ) ;
#120 = PERSON_AND_ORGANIZATION ( #46, #328 ) ;
#121 = APPROVAL_ROLE ( '' ) ;
#122 = EDGE_CURVE ( 'NONE', #77, #138, #18, .T. ) ;
#123 =( NAMED_UNIT ( * ) SI_UNIT ( $, .STERADIAN. ) SOLID_ANGLE_UNIT ( ) );
#124 = DIRECTION ( 'NONE',  ( 0.000000000000000000, 0.000000000000000000, 1.000000000000000000 ) ) ;
#125 = ADVANCED_FACE ( 'NONE', ( #127, #101 ), #210, .F. ) ;
#126 = CIRCLE ( 'NONE', #96, 5.000000000000000000 ) ;
#127 = FACE_BOUND ( 'NONE', #170, .T. ) ;
#128 = CIRCLE ( 'NONE', #278, 5.000000000000000000 ) ;
#129 = CIRCLE ( 'NONE', #306, 5.000000000000001776 ) ;
#130 = CARTESIAN_POINT ( 'NONE',  ( 1.250000000000000444, 0.000000000000000000, 0.000000000000000000 ) ) ;
#131 = LINE ( 'NONE', #29, #205 ) ;
#132 = CYLINDRICAL_SURFACE ( 'NONE', #155, 5.000000000000000888 ) ;
#133 = CIRCLE ( 'NONE', #178, 12.69999999999999929 ) ;
#134 = CIRCLE ( 'NONE', #116, 5.000000000000000888 ) ;
#135 = ORIENTED_EDGE ( 'NONE', *, *, #273, .T. ) ;
#136 = CARTESIAN_POINT ( 'NONE',  ( -3.000000000000000000, 1.555301434917138433E-15, -12.69999999999999929 ) ) ;
#137 = MANIFOLD_SOLID_BREP ( 'Ðý×', #11 ) ;
#138 = VERTEX_POINT ( 'NONE', #206 ) ;
#139 = CARTESIAN_POINT ( 'NONE',  ( -1.614212418857619014, 0.000000000000000000, 12.69999999999999929 ) ) ;
#140 = EDGE_LOOP ( 'NONE', ( #237, #30, #81, #260 ) ) ;
#141 = DIRECTION ( 'NONE',  ( 0.000000000000000000, 0.000000000000000000, 1.000000000000000000 ) ) ;
#142 = ORIENTED_EDGE ( 'NONE', *, *, #276, .T. ) ;
#143 = DIRECTION ( 'NONE',  ( 1.000000000000000000, 0.000000000000000000, 0.000000000000000000 ) ) ;
#144 = ADVANCED_FACE ( 'NONE', ( #309 ), #282, .F. ) ;
#145 = CARTESIAN_POINT ( 'NONE',  ( -1.250000000000000222, 0.000000000000000000, 0.000000000000000000 ) ) ;
#146 =( LENGTH_UNIT ( ) NAMED_UNIT ( * ) SI_UNIT ( .MILLI., .METRE. ) );
#147 = ADVANCED_FACE ( 'NONE', ( #6 ), #204, .T. ) ;
#148 = APPROVAL_ROLE ( '' ) ;
#149 = PRODUCT_DEFINITION_SHAPE ( 'NONE', 'NONE',  #286 ) ;
#150 = APPROVAL_ROLE ( '' ) ;
#151 = APPROVAL_DATE_TIME ( #42, #240 ) ;
#152 = EDGE_CURVE ( 'NONE', #315, #55, #200, .T. ) ;
#153 = ORIENTED_EDGE ( 'NONE', *, *, #298, .T. ) ;
#154 = DATE_TIME_ROLE ( 'creation_date' ) ;
#155 = AXIS2_PLACEMENT_3D ( 'NONE', #307, #255, #104 ) ;
#156 = ADVANCED_FACE ( 'NONE', ( #270, #295 ), #266, .F. ) ;
#157 = DIRECTION ( 'NONE',  ( 0.000000000000000000, 0.000000000000000000, 1.000000000000000000 ) ) ;
#158 = CARTESIAN_POINT ( 'NONE',  ( -3.000000000000000000, 0.000000000000000000, 12.69999999999999929 ) ) ;
#159 = CARTESIAN_POINT ( 'NONE',  ( 3.000000000000000000, 1.555301434917138433E-15, -12.69999999999999929 ) ) ;
#160 = LOCAL_TIME ( 17, 12, 19.00000000000000000, #245 ) ;
#161 = CC_DESIGN_PERSON_AND_ORGANIZATION_ASSIGNMENT ( #198, #22, ( #286 ) ) ;
#162 = CARTESIAN_POINT ( 'NONE',  ( 1.250000000000000444, 6.123233995736766282E-16, -5.000000000000000000 ) ) ;
#163 = DIRECTION ( 'NONE',  ( 0.000000000000000000, 0.000000000000000000, 1.000000000000000000 ) ) ;
#164 = DIRECTION ( 'NONE',  ( 0.000000000000000000, 0.000000000000000000, -1.000000000000000000 ) ) ;
#165 = AXIS2_PLACEMENT_3D ( 'NONE', #182, #283, #258 ) ;
#166 = CC_DESIGN_APPROVAL ( #240, ( #286 ) ) ;
#167 = ORIENTED_EDGE ( 'NONE', *, *, #23, .T. ) ;
#168 = LINE ( 'NONE', #9, #201 ) ;
#169 = CALENDAR_DATE ( 2020, 22, 12 ) ;
#170 = EDGE_LOOP ( 'NONE', ( #224, #209 ) ) ;
#171 = CARTESIAN_POINT ( 'NONE',  ( -3.000000000000000000, 6.123233995736766282E-16, -5.000000000000000000 ) ) ;
#172 = CIRCLE ( 'NONE', #281, 5.000000000000001776 ) ;
#173 = AXIS2_PLACEMENT_3D ( 'NONE', #38, #61, #106 ) ;
#174 = ORIENTED_EDGE ( 'NONE', *, *, #276, .F. ) ;
#175 = DIRECTION ( 'NONE',  ( 0.000000000000000000, 0.000000000000000000, 1.000000000000000000 ) ) ;
#176 = CYLINDRICAL_SURFACE ( 'NONE', #228, 5.000000000000000888 ) ;
#177 = APPROVAL_STATUS ( 'not_yet_approved' ) ;
#178 = AXIS2_PLACEMENT_3D ( 'NONE', #231, #235, #2 ) ;
#179 = APPLICATION_CONTEXT ( 'configuration controlled 3d designs of mechanical parts and assemblies' ) ;
#180 = PRODUCT_DEFINITION_FORMATION_WITH_SPECIFIED_SOURCE ( 'ANY', '', #31, .NOT_KNOWN. ) ;
#181 = ADVANCED_FACE ( 'NONE', ( #32 ), #110, .T. ) ;
#182 = CARTESIAN_POINT ( 'NONE',  ( -1.614212418857619014, 0.000000000000000000, 0.000000000000000000 ) ) ;
#183 = EDGE_LOOP ( 'NONE', ( #190, #10, #265, #174 ) ) ;
#184 = DIRECTION ( 'NONE',  ( -1.000000000000000000, -0.000000000000000000, -0.000000000000000000 ) ) ;
#185 = EDGE_LOOP ( 'NONE', ( #284, #105, #239, #217 ) ) ;
#186 = LINE ( 'NONE', #139, #92 ) ;
#187 = LOCAL_TIME ( 17, 12, 19.00000000000000000, #322 ) ;
#188 = VERTEX_POINT ( 'NONE', #136 ) ;
#189 = DIRECTION ( 'NONE',  ( 0.000000000000000000, 0.000000000000000000, -1.000000000000000000 ) ) ;
#190 = ORIENTED_EDGE ( 'NONE', *, *, #298, .F. ) ;
#191 = CARTESIAN_POINT ( 'NONE',  ( 3.000000000000000000, 6.123233995736768255E-16, -5.000000000000001776 ) ) ;
#192 = DIRECTION ( 'NONE',  ( -1.000000000000000000, -0.000000000000000000, -0.000000000000000000 ) ) ;
#193 = CARTESIAN_POINT ( 'NONE',  ( -1.250000000000000222, 5.000000000000000000, 0.000000000000000000 ) ) ;
#194 = DATE_AND_TIME ( #169, #160 ) ;
#195 = VERTEX_POINT ( 'NONE', #191 ) ;
#196 = CALENDAR_DATE ( 2020, 22, 12 ) ;
#197 = EDGE_LOOP ( 'NONE', ( #111, #302 ) ) ;
#198 = PERSON_AND_ORGANIZATION ( #46, #328 ) ;
#199 = PERSON_AND_ORGANIZATION_ROLE ( 'design_supplier' ) ;
#200 = CIRCLE ( 'NONE', #305, 5.000000000000000888 ) ;
#201 = VECTOR ( 'NONE', #84, 1000.000000000000000 ) ;
#202 = LINE ( 'NONE', #335, #108 ) ;
#203 = CARTESIAN_POINT ( 'NONE',  ( -3.000000000000000000, 0.000000000000000000, 0.000000000000000000 ) ) ;
#204 = CYLINDRICAL_SURFACE ( 'NONE', #165, 12.69999999999999929 ) ;
#205 = VECTOR ( 'NONE', #234, 1000.000000000000000 ) ;
#206 = CARTESIAN_POINT ( 'NONE',  ( 3.000000000000000000, 0.000000000000000000, 12.69999999999999929 ) ) ;
#207 = LOCAL_TIME ( 17, 12, 19.00000000000000000, #250 ) ;
#208 = EDGE_CURVE ( 'NONE', #138, #77, #98, .T. ) ;
#209 = ORIENTED_EDGE ( 'NONE', *, *, #102, .F. ) ;
#210 = PLANE ( 'NONE',  #304 ) ;
#211 = ORIENTED_EDGE ( 'NONE', *, *, #102, .T. ) ;
#212 = EDGE_CURVE ( 'NONE', #55, #292, #216, .T. ) ;
#213 = DIRECTION ( 'NONE',  ( -1.000000000000000000, -0.000000000000000000, -0.000000000000000000 ) ) ;
#214 = VERTEX_POINT ( 'NONE', #293 ) ;
#215 = ORIENTED_EDGE ( 'NONE', *, *, #51, .F. ) ;
#216 = LINE ( 'NONE', #114, #82 ) ;
#217 = ORIENTED_EDGE ( 'NONE', *, *, #89, .T. ) ;
#218 = DIRECTION ( 'NONE',  ( -1.000000000000000000, -0.000000000000000000, -0.000000000000000000 ) ) ;
#219 = CARTESIAN_POINT ( 'NONE',  ( -1.250000000000000222, 0.000000000000000000, 5.000000000000000888 ) ) ;
#220 = SHAPE_DEFINITION_REPRESENTATION ( #149, #13 ) ;
#221 = CC_DESIGN_DATE_AND_TIME_ASSIGNMENT ( #194, #319, ( #60 ) ) ;
#222 = PERSON_AND_ORGANIZATION_ROLE ( 'design_owner' ) ;
#223 = DIRECTION ( 'NONE',  ( -1.000000000000000000, -0.000000000000000000, -0.000000000000000000 ) ) ;
#224 = ORIENTED_EDGE ( 'NONE', *, *, #89, .F. ) ;
#225 = PERSON_AND_ORGANIZATION_ROLE ( 'creator' ) ;
#226 = AXIS2_PLACEMENT_3D ( 'NONE', #17, #45, #117 ) ;
#227 = MECHANICAL_CONTEXT ( 'NONE', #119, 'mechanical' ) ;
#228 = AXIS2_PLACEMENT_3D ( 'NONE', #248, #223, #163 ) ;
#229 = APPROVAL ( #94, 'UNSPECIFIED' ) ;
#230 = LOCAL_TIME ( 17, 12, 19.00000000000000000, #275 ) ;
#231 = CARTESIAN_POINT ( 'NONE',  ( -3.000000000000000000, 0.000000000000000000, 0.000000000000000000 ) ) ;
#232 = DIRECTION ( 'NONE',  ( -1.000000000000000000, -0.000000000000000000, -0.000000000000000000 ) ) ;
#233 = CARTESIAN_POINT ( 'NONE',  ( -1.250000000000000222, 6.123233995736767268E-16, -5.000000000000000888 ) ) ;
#234 = DIRECTION ( 'NONE',  ( -1.000000000000000000, -0.000000000000000000, -0.000000000000000000 ) ) ;
#235 = DIRECTION ( 'NONE',  ( -1.000000000000000000, -0.000000000000000000, -0.000000000000000000 ) ) ;
#236 = UNCERTAINTY_MEASURE_WITH_UNIT (LENGTH_MEASURE( 1.000000000000000082E-05 ), #146, 'distance_accuracy_value', 'NONE');
#237 = ORIENTED_EDGE ( 'NONE', *, *, #208, .T. ) ;
#238 = ORIENTED_EDGE ( 'NONE', *, *, #249, .F. ) ;
#239 = ORIENTED_EDGE ( 'NONE', *, *, #51, .T. ) ;
#240 = APPROVAL ( #25, 'UNSPECIFIED' ) ;
#241 = SECURITY_CLASSIFICATION_LEVEL ( 'unclassified' ) ;
#242 = AXIS2_PLACEMENT_3D ( 'NONE', #73, #71, #100 ) ;
#243 = ORIENTED_EDGE ( 'NONE', *, *, #301, .F. ) ;
#244 = CARTESIAN_POINT ( 'NONE',  ( -3.000000000000000000, 0.000000000000000000, 0.000000000000000000 ) ) ;
#245 = COORDINATED_UNIVERSAL_TIME_OFFSET ( 8, 0, .AHEAD. ) ;
#246 = DIRECTION ( 'NONE',  ( 1.000000000000000000, 0.000000000000000000, 0.000000000000000000 ) ) ;
#247 = CC_DESIGN_APPROVAL ( #297, ( #180 ) ) ;
#248 = CARTESIAN_POINT ( 'NONE',  ( -1.614212418857619014, 0.000000000000000000, 0.000000000000000000 ) ) ;
#249 = EDGE_CURVE ( 'NONE', #77, #188, #79, .T. ) ;
#250 = COORDINATED_UNIVERSAL_TIME_OFFSET ( 8, 0, .AHEAD. ) ;
#251 = CALENDAR_DATE ( 2020, 22, 12 ) ;
#252 = PERSON_AND_ORGANIZATION ( #46, #328 ) ;
#253 = EDGE_LOOP ( 'NONE', ( #238, #287, #40, #289 ) ) ;
#254 = CC_DESIGN_PERSON_AND_ORGANIZATION_ASSIGNMENT ( #120, #225, ( #180 ) ) ;
#255 = DIRECTION ( 'NONE',  ( -1.000000000000000000, -0.000000000000000000, -0.000000000000000000 ) ) ;
#256 = CIRCLE ( 'NONE', #269, 12.69999999999999929 ) ;
#257 = CARTESIAN_POINT ( 'NONE',  ( -1.614212418857619014, 0.000000000000000000, 0.000000000000000000 ) ) ;
#258 = DIRECTION ( 'NONE',  ( 0.000000000000000000, 0.000000000000000000, 1.000000000000000000 ) ) ;
#259 = EDGE_CURVE ( 'NONE', #138, #115, #186, .T. ) ;
#260 = ORIENTED_EDGE ( 'NONE', *, *, #259, .F. ) ;
#261 = AXIS2_PLACEMENT_3D ( 'NONE', #312, #310, #27 ) ;
#262 = DIRECTION ( 'NONE',  ( -1.000000000000000000, -0.000000000000000000, -0.000000000000000000 ) ) ;
#263 = ORIENTED_EDGE ( 'NONE', *, *, #23, .F. ) ;
#264 = DIRECTION ( 'NONE',  ( -1.000000000000000000, 0.000000000000000000, -0.000000000000000000 ) ) ;
#265 = ORIENTED_EDGE ( 'NONE', *, *, #118, .T. ) ;
#266 = PLANE ( 'NONE',  #54 ) ;
#267 = ORIENTED_EDGE ( 'NONE', *, *, #212, .T. ) ;
#268 = CARTESIAN_POINT ( 'NONE',  ( 3.000000000000000000, 0.000000000000000000, 0.000000000000000000 ) ) ;
#269 = AXIS2_PLACEMENT_3D ( 'NONE', #244, #288, #57 ) ;
#270 = FACE_OUTER_BOUND ( 'NONE', #197, .T. ) ;
#271 = DATE_AND_TIME ( #251, #187 ) ;
#272 = VECTOR ( 'NONE', #320, 1000.000000000000000 ) ;
#273 = EDGE_CURVE ( 'NONE', #188, #115, #256, .T. ) ;
#274 = AXIS2_PLACEMENT_3D ( 'NONE', #88, #213, #141 ) ;
#275 = COORDINATED_UNIVERSAL_TIME_OFFSET ( 8, 0, .AHEAD. ) ;
#276 = EDGE_CURVE ( 'NONE', #8, #214, #168, .T. ) ;
#277 = CIRCLE ( 'NONE', #327, 5.000000000000000000 ) ;
#278 = AXIS2_PLACEMENT_3D ( 'NONE', #112, #192, #175 ) ;
#279 = FACE_OUTER_BOUND ( 'NONE', #7, .T. ) ;
#280 = DIRECTION ( 'NONE',  ( 0.000000000000000000, 0.000000000000000000, 1.000000000000000000 ) ) ;
#281 = AXIS2_PLACEMENT_3D ( 'NONE', #66, #21, #41 ) ;
#282 = PLANE ( 'NONE',  #242 ) ;
#283 = DIRECTION ( 'NONE',  ( -1.000000000000000000, -0.000000000000000000, -0.000000000000000000 ) ) ;
#284 = ORIENTED_EDGE ( 'NONE', *, *, #212, .F. ) ;
#285 = CYLINDRICAL_SURFACE ( 'NONE', #91, 5.000000000000000888 ) ;
#286 = PRODUCT_DEFINITION ( 'UNKNOWN', '', #180, #90 ) ;
#287 = ORIENTED_EDGE ( 'NONE', *, *, #122, .T. ) ;
#288 = DIRECTION ( 'NONE',  ( -1.000000000000000000, -0.000000000000000000, -0.000000000000000000 ) ) ;
#289 = ORIENTED_EDGE ( 'NONE', *, *, #273, .F. ) ;
#290 = DIRECTION ( 'NONE',  ( -0.000000000000000000, 0.000000000000000000, 1.000000000000000000 ) ) ;
#291 = PERSON_AND_ORGANIZATION ( #46, #328 ) ;
#292 = VERTEX_POINT ( 'NONE', #171 ) ;
#293 = CARTESIAN_POINT ( 'NONE',  ( 1.250000000000000444, 0.000000000000000000, 5.000000000000000000 ) ) ;
#294 = EDGE_LOOP ( 'NONE', ( #52, #34 ) ) ;
#295 = FACE_BOUND ( 'NONE', #109, .T. ) ;
#296 =( GEOMETRIC_REPRESENTATION_CONTEXT ( 3 ) GLOBAL_UNCERTAINTY_ASSIGNED_CONTEXT ( ( #236 ) ) GLOBAL_UNIT_ASSIGNED_CONTEXT ( ( #146, #67, #123 ) ) REPRESENTATION_CONTEXT ( 'NONE', 'WORKASPACE' ) );
#297 = APPROVAL ( #177, 'UNSPECIFIED' ) ;
#298 = EDGE_CURVE ( 'NONE', #195, #8, #129, .T. ) ;
#299 = DIRECTION ( 'NONE',  ( 0.000000000000000000, 0.000000000000000000, 1.000000000000000000 ) ) ;
#300 = PERSON_AND_ORGANIZATION ( #46, #328 ) ;
#301 = EDGE_CURVE ( 'NONE', #214, #87, #128, .T. ) ;
#302 = ORIENTED_EDGE ( 'NONE', *, *, #122, .F. ) ;
#303 = PERSON_AND_ORGANIZATION ( #46, #328 ) ;
#304 = AXIS2_PLACEMENT_3D ( 'NONE', #1, #99, #50 ) ;
#305 = AXIS2_PLACEMENT_3D ( 'NONE', #83, #143, #189 ) ;
#306 = AXIS2_PLACEMENT_3D ( 'NONE', #268, #37, #14 ) ;
#307 = CARTESIAN_POINT ( 'NONE',  ( -1.614212418857619014, 0.000000000000000000, 0.000000000000000000 ) ) ;
#308 = EDGE_CURVE ( 'NONE', #55, #315, #134, .T. ) ;
#309 = FACE_OUTER_BOUND ( 'NONE', #78, .T. ) ;
#310 = DIRECTION ( 'NONE',  ( -1.000000000000000000, -0.000000000000000000, -0.000000000000000000 ) ) ;
#311 = APPROVAL_PERSON_ORGANIZATION ( #291, #229, #148 ) ;
#312 = CARTESIAN_POINT ( 'NONE',  ( 3.000000000000000000, 0.000000000000000000, 0.000000000000000000 ) ) ;
#313 = ORIENTED_EDGE ( 'NONE', *, *, #95, .T. ) ;
#314 = DIRECTION ( 'NONE',  ( -1.000000000000000000, -0.000000000000000000, -0.000000000000000000 ) ) ;
#315 = VERTEX_POINT ( 'NONE', #219 ) ;
#316 = DIRECTION ( 'NONE',  ( -1.000000000000000000, -0.000000000000000000, -0.000000000000000000 ) ) ;
#317 = ORIENTED_EDGE ( 'NONE', *, *, #72, .F. ) ;
#318 = CC_DESIGN_SECURITY_CLASSIFICATION ( #60, ( #180 ) ) ;
#319 = DATE_TIME_ROLE ( 'classification_date' ) ;
#320 = DIRECTION ( 'NONE',  ( -1.000000000000000000, -0.000000000000000000, -0.000000000000000000 ) ) ;
#321 = ORIENTED_EDGE ( 'NONE', *, *, #301, .T. ) ;
#322 = COORDINATED_UNIVERSAL_TIME_OFFSET ( 8, 0, .AHEAD. ) ;
#323 = CC_DESIGN_PERSON_AND_ORGANIZATION_ASSIGNMENT ( #326, #85, ( #60 ) ) ;
#324 = CARTESIAN_POINT ( 'NONE',  ( -3.000000000000000000, 0.000000000000000000, 5.000000000000000000 ) ) ;
#325 = PLANE ( 'NONE',  #24 ) ;
#326 = PERSON_AND_ORGANIZATION ( #46, #328 ) ;
#327 = AXIS2_PLACEMENT_3D ( 'NONE', #203, #4, #28 ) ;
#328 = ORGANIZATION ( 'UNSPECIFIED', 'UNSPECIFIED', '' ) ;
#329 = APPLICATION_PROTOCOL_DEFINITION ( 'international standard', 'config_control_design', 1994, #179 ) ;
#330 = PERSON_AND_ORGANIZATION ( #46, #328 ) ;
#331 = APPROVAL_PERSON_ORGANIZATION ( #252, #240, #121 ) ;
#332 = FACE_OUTER_BOUND ( 'NONE', #183, .T. ) ;
#333 = PRODUCT_RELATED_PRODUCT_CATEGORY ( 'detail', '', ( #31 ) ) ;
#334 = ADVANCED_FACE ( 'NONE', ( #93 ), #325, .F. ) ;
#335 = CARTESIAN_POINT ( 'NONE',  ( -1.614212418857619014, 6.123233995736767268E-16, -5.000000000000000888 ) ) ;
ENDSEC;
END-ISO-10303-21;
